ISO-10303-21;
HEADER;
FILE_DESCRIPTION (( 'STEP AP203' ),
    '1' );
FILE_NAME ('QB-CTZQWP-38.1-633-M.STEP',
    '2020-12-24T01:52:04',
    ( '' ),
    ( '' ),
    'SwSTEP 2.0',
    'SolidWorks 2020',
    '' );
FILE_SCHEMA (( 'CONFIG_CONTROL_DESIGN' ));
ENDSEC;

DATA;
#1 = CYLINDRICAL_SURFACE ( 'NONE', #24, 25.39999999999999858 ) ;
#2 = DIRECTION ( 'NONE',  ( -0.000000000000000000, 0.000000000000000000, 1.000000000000000000 ) ) ;
#3 = DATE_AND_TIME ( #132, #59 ) ;
#4 = CARTESIAN_POINT ( 'NONE',  ( 3.000000000000000000, 0.000000000000000000, 25.39999999999999858 ) ) ;
#5 = PERSON_AND_ORGANIZATION_ROLE ( 'design_supplier' ) ;
#6 = APPLICATION_CONTEXT ( 'configuration controlled 3d designs of mechanical parts and assemblies' ) ;
#7 = PERSON_AND_ORGANIZATION_ROLE ( 'design_owner' ) ;
#8 = EDGE_LOOP ( 'NONE', ( #23, #53, #98, #25 ) ) ;
#9 = COORDINATED_UNIVERSAL_TIME_OFFSET ( 8, 0, .AHEAD. ) ;
#10 = AXIS2_PLACEMENT_3D ( 'NONE', #44, #131, #106 ) ;
#11 = VERTEX_POINT ( 'NONE', #79 ) ;
#12 = APPROVAL ( #170, 'UNSPECIFIED' ) ;
#13 = PRODUCT_RELATED_PRODUCT_CATEGORY ( 'detail', '', ( #54 ) ) ;
#14 = FACE_OUTER_BOUND ( 'NONE', #39, .T. ) ;
#15 = CARTESIAN_POINT ( 'NONE',  ( 3.000000000000000000, 0.000000000000000000, 0.000000000000000000 ) ) ;
#16 = ADVANCED_BREP_SHAPE_REPRESENTATION ( 'QB-CTZQWP-38.1-633-M', ( #61, #19 ), #117 ) ;
#17 = LINE ( 'NONE', #35, #42 ) ;
#18 = CARTESIAN_POINT ( 'NONE',  ( -3.000000000000000000, 0.000000000000000000, 0.000000000000000000 ) ) ;
#19 = AXIS2_PLACEMENT_3D ( 'NONE', #84, #64, #94 ) ;
#20 = DIRECTION ( 'NONE',  ( -1.000000000000000000, -0.000000000000000000, -0.000000000000000000 ) ) ;
#21 = DATE_AND_TIME ( #119, #159 ) ;
#22 = CC_DESIGN_PERSON_AND_ORGANIZATION_ASSIGNMENT ( #50, #5, ( #139 ) ) ;
#23 = ORIENTED_EDGE ( 'NONE', *, *, #138, .T. ) ;
#24 = AXIS2_PLACEMENT_3D ( 'NONE', #60, #118, #105 ) ;
#25 = ORIENTED_EDGE ( 'NONE', *, *, #62, .F. ) ;
#26 = PERSON_AND_ORGANIZATION ( #46, #127 ) ;
#27 = EDGE_LOOP ( 'NONE', ( #110, #85 ) ) ;
#28 = EDGE_CURVE ( 'NONE', #38, #167, #90, .T. ) ;
#29 = APPROVAL_DATE_TIME ( #87, #12 ) ;
#30 = CIRCLE ( 'NONE', #164, 25.39999999999999858 ) ;
#31 = EDGE_CURVE ( 'NONE', #11, #167, #96, .T. ) ;
#32 = APPROVAL ( #156, 'UNSPECIFIED' ) ;
#33 = DIRECTION ( 'NONE',  ( -1.000000000000000000, -0.000000000000000000, -0.000000000000000000 ) ) ;
#34 = CARTESIAN_POINT ( 'NONE',  ( -3.000000000000000000, 0.000000000000000000, 0.000000000000000000 ) ) ;
#35 = CARTESIAN_POINT ( 'NONE',  ( -1.614212418857619014, 0.000000000000000000, 25.39999999999999858 ) ) ;
#36 =( LENGTH_UNIT ( ) NAMED_UNIT ( * ) SI_UNIT ( .MILLI., .METRE. ) );
#37 = PERSON_AND_ORGANIZATION ( #46, #127 ) ;
#38 = VERTEX_POINT ( 'NONE', #81 ) ;
#39 = EDGE_LOOP ( 'NONE', ( #136, #157 ) ) ;
#40 = COORDINATED_UNIVERSAL_TIME_OFFSET ( 8, 0, .AHEAD. ) ;
#41 = CC_DESIGN_APPROVAL ( #32, ( #162 ) ) ;
#42 = VECTOR ( 'NONE', #20, 1000.000000000000000 ) ;
#43 = CC_DESIGN_SECURITY_CLASSIFICATION ( #63, ( #139 ) ) ;
#44 = CARTESIAN_POINT ( 'NONE',  ( -3.000000000000001332, 19.05000000000000071, 0.000000000000000000 ) ) ;
#45 = DIRECTION ( 'NONE',  ( 0.000000000000000000, 0.000000000000000000, 1.000000000000000000 ) ) ;
#46 = PERSON ( 'UNSPECIFIED', 'UNSPECIFIED', 'UNSPECIFIED', ('UNSPECIFIED'), ('UNSPECIFIED'), ('UNSPECIFIED') ) ;
#47 = VECTOR ( 'NONE', #140, 1000.000000000000000 ) ;
#48 = CC_DESIGN_PERSON_AND_ORGANIZATION_ASSIGNMENT ( #122, #166, ( #162 ) ) ;
#49 = DIRECTION ( 'NONE',  ( 0.000000000000000000, 0.000000000000000000, 1.000000000000000000 ) ) ;
#50 = PERSON_AND_ORGANIZATION ( #46, #127 ) ;
#51 =( NAMED_UNIT ( * ) PLANE_ANGLE_UNIT ( ) SI_UNIT ( $, .RADIAN. ) );
#52 = DATE_TIME_ROLE ( 'creation_date' ) ;
#53 = ORIENTED_EDGE ( 'NONE', *, *, #28, .T. ) ;
#54 = PRODUCT ( 'QB-CTZQWP-38.1-633-M', 'QB-CTZQWP-38.1-633-M', '', ( #172 ) ) ;
#55 = APPLICATION_PROTOCOL_DEFINITION ( 'international standard', 'config_control_design', 1994, #69 ) ;
#56 = ORIENTED_EDGE ( 'NONE', *, *, #67, .F. ) ;
#57 = APPROVAL ( #121, 'UNSPECIFIED' ) ;
#58 = AXIS2_PLACEMENT_3D ( 'NONE', #15, #83, #89 ) ;
#59 = LOCAL_TIME ( 9, 52, 4.000000000000000000, #9 ) ;
#60 = CARTESIAN_POINT ( 'NONE',  ( -1.614212418857619014, 0.000000000000000000, 0.000000000000000000 ) ) ;
#61 = MANIFOLD_SOLID_BREP ( 'Ðý×', #115 ) ;
#62 = EDGE_CURVE ( 'NONE', #112, #11, #17, .T. ) ;
#63 = SECURITY_CLASSIFICATION ( '', '', #70 ) ;
#64 = DIRECTION ( 'NONE',  ( 0.000000000000000000, 0.000000000000000000, 1.000000000000000000 ) ) ;
#65 = CARTESIAN_POINT ( 'NONE',  ( -1.614212418857619014, 3.110602869834276865E-15, -25.39999999999999858 ) ) ;
#66 = COORDINATED_UNIVERSAL_TIME_OFFSET ( 8, 0, .AHEAD. ) ;
#67 = EDGE_CURVE ( 'NONE', #167, #11, #126, .T. ) ;
#68 = FACE_OUTER_BOUND ( 'NONE', #8, .T. ) ;
#69 = APPLICATION_CONTEXT ( 'configuration controlled 3d designs of mechanical parts and assemblies' ) ;
#70 = SECURITY_CLASSIFICATION_LEVEL ( 'unclassified' ) ;
#71 = AXIS2_PLACEMENT_3D ( 'NONE', #129, #128, #2 ) ;
#72 = PERSON_AND_ORGANIZATION ( #46, #127 ) ;
#73 = SHAPE_DEFINITION_REPRESENTATION ( #171, #16 ) ;
#74 = CIRCLE ( 'NONE', #58, 25.39999999999999858 ) ;
#75 = CC_DESIGN_PERSON_AND_ORGANIZATION_ASSIGNMENT ( #147, #100, ( #139 ) ) ;
#76 = APPROVAL_PERSON_ORGANIZATION ( #72, #12, #161 ) ;
#77 = FACE_OUTER_BOUND ( 'NONE', #27, .T. ) ;
#78 = ADVANCED_FACE ( 'NONE', ( #14 ), #95, .F. ) ;
#79 = CARTESIAN_POINT ( 'NONE',  ( -3.000000000000000000, 0.000000000000000000, 25.39999999999999858 ) ) ;
#80 = PLANE ( 'NONE',  #71 ) ;
#81 = CARTESIAN_POINT ( 'NONE',  ( 3.000000000000000000, 3.110602869834276865E-15, -25.39999999999999858 ) ) ;
#82 = AXIS2_PLACEMENT_3D ( 'NONE', #34, #92, #142 ) ;
#83 = DIRECTION ( 'NONE',  ( -1.000000000000000000, -0.000000000000000000, -0.000000000000000000 ) ) ;
#84 = CARTESIAN_POINT ( 'NONE',  ( 0.000000000000000000, 0.000000000000000000, 0.000000000000000000 ) ) ;
#85 = ORIENTED_EDGE ( 'NONE', *, *, #111, .F. ) ;
#86 = CALENDAR_DATE ( 2020, 24, 12 ) ;
#87 = DATE_AND_TIME ( #174, #114 ) ;
#88 = APPROVAL_PERSON_ORGANIZATION ( #37, #57, #155 ) ;
#89 = DIRECTION ( 'NONE',  ( 0.000000000000000000, 0.000000000000000000, 1.000000000000000000 ) ) ;
#90 = LINE ( 'NONE', #65, #47 ) ;
#91 = CARTESIAN_POINT ( 'NONE',  ( -1.614212418857619014, 0.000000000000000000, 0.000000000000000000 ) ) ;
#92 = DIRECTION ( 'NONE',  ( -1.000000000000000000, -0.000000000000000000, -0.000000000000000000 ) ) ;
#93 = CC_DESIGN_PERSON_AND_ORGANIZATION_ASSIGNMENT ( #107, #135, ( #63 ) ) ;
#94 = DIRECTION ( 'NONE',  ( 1.000000000000000000, 0.000000000000000000, 0.000000000000000000 ) ) ;
#95 = PLANE ( 'NONE',  #10 ) ;
#96 = CIRCLE ( 'NONE', #141, 25.39999999999999858 ) ;
#97 = APPROVAL_DATE_TIME ( #109, #32 ) ;
#98 = ORIENTED_EDGE ( 'NONE', *, *, #31, .F. ) ;
#99 = AXIS2_PLACEMENT_3D ( 'NONE', #91, #104, #120 ) ;
#100 = PERSON_AND_ORGANIZATION_ROLE ( 'creator' ) ;
#101 = UNCERTAINTY_MEASURE_WITH_UNIT (LENGTH_MEASURE( 1.000000000000000082E-05 ), #36, 'distance_accuracy_value', 'NONE');
#102 = CC_DESIGN_PERSON_AND_ORGANIZATION_ASSIGNMENT ( #168, #7, ( #54 ) ) ;
#103 = DESIGN_CONTEXT ( 'detailed design', #69, 'design' ) ;
#104 = DIRECTION ( 'NONE',  ( -1.000000000000000000, -0.000000000000000000, -0.000000000000000000 ) ) ;
#105 = DIRECTION ( 'NONE',  ( 0.000000000000000000, 0.000000000000000000, 1.000000000000000000 ) ) ;
#106 = DIRECTION ( 'NONE',  ( 0.000000000000000000, 0.000000000000000000, -1.000000000000000000 ) ) ;
#107 = PERSON_AND_ORGANIZATION ( #46, #127 ) ;
#108 = CALENDAR_DATE ( 2020, 24, 12 ) ;
#109 = DATE_AND_TIME ( #86, #175 ) ;
#110 = ORIENTED_EDGE ( 'NONE', *, *, #138, .F. ) ;
#111 = EDGE_CURVE ( 'NONE', #38, #112, #74, .T. ) ;
#112 = VERTEX_POINT ( 'NONE', #4 ) ;
#113 = APPROVAL_ROLE ( '' ) ;
#114 = LOCAL_TIME ( 9, 52, 4.000000000000000000, #160 ) ;
#115 = CLOSED_SHELL ( 'NONE', ( #150, #134, #125, #78 ) ) ;
#116 = CARTESIAN_POINT ( 'NONE',  ( 3.000000000000000000, 0.000000000000000000, 0.000000000000000000 ) ) ;
#117 =( GEOMETRIC_REPRESENTATION_CONTEXT ( 3 ) GLOBAL_UNCERTAINTY_ASSIGNED_CONTEXT ( ( #101 ) ) GLOBAL_UNIT_ASSIGNED_CONTEXT ( ( #36, #51, #153 ) ) REPRESENTATION_CONTEXT ( 'NONE', 'WORKASPACE' ) );
#118 = DIRECTION ( 'NONE',  ( -1.000000000000000000, -0.000000000000000000, -0.000000000000000000 ) ) ;
#119 = CALENDAR_DATE ( 2020, 24, 12 ) ;
#120 = DIRECTION ( 'NONE',  ( 0.000000000000000000, 0.000000000000000000, 1.000000000000000000 ) ) ;
#121 = APPROVAL_STATUS ( 'not_yet_approved' ) ;
#122 = PERSON_AND_ORGANIZATION ( #46, #127 ) ;
#123 = ORIENTED_EDGE ( 'NONE', *, *, #111, .T. ) ;
#124 = CC_DESIGN_APPROVAL ( #12, ( #63 ) ) ;
#125 = ADVANCED_FACE ( 'NONE', ( #152 ), #1, .T. ) ;
#126 = CIRCLE ( 'NONE', #82, 25.39999999999999858 ) ;
#127 = ORGANIZATION ( 'UNSPECIFIED', 'UNSPECIFIED', '' ) ;
#128 = DIRECTION ( 'NONE',  ( -1.000000000000000000, 0.000000000000000000, -0.000000000000000000 ) ) ;
#129 = CARTESIAN_POINT ( 'NONE',  ( 3.000000000000001332, 19.05000000000000071, 0.000000000000000000 ) ) ;
#130 = DIRECTION ( 'NONE',  ( -1.000000000000000000, -0.000000000000000000, -0.000000000000000000 ) ) ;
#131 = DIRECTION ( 'NONE',  ( 1.000000000000000000, 0.000000000000000000, 0.000000000000000000 ) ) ;
#132 = CALENDAR_DATE ( 2020, 24, 12 ) ;
#133 = DATE_TIME_ROLE ( 'classification_date' ) ;
#134 = ADVANCED_FACE ( 'NONE', ( #77 ), #80, .F. ) ;
#135 = PERSON_AND_ORGANIZATION_ROLE ( 'classification_officer' ) ;
#136 = ORIENTED_EDGE ( 'NONE', *, *, #31, .T. ) ;
#137 = ORIENTED_EDGE ( 'NONE', *, *, #62, .T. ) ;
#138 = EDGE_CURVE ( 'NONE', #112, #38, #30, .T. ) ;
#139 = PRODUCT_DEFINITION_FORMATION_WITH_SPECIFIED_SOURCE ( 'ANY', '', #54, .NOT_KNOWN. ) ;
#140 = DIRECTION ( 'NONE',  ( -1.000000000000000000, -0.000000000000000000, -0.000000000000000000 ) ) ;
#141 = AXIS2_PLACEMENT_3D ( 'NONE', #18, #33, #49 ) ;
#142 = DIRECTION ( 'NONE',  ( 0.000000000000000000, 0.000000000000000000, 1.000000000000000000 ) ) ;
#143 = CARTESIAN_POINT ( 'NONE',  ( -3.000000000000000000, 3.110602869834276865E-15, -25.39999999999999858 ) ) ;
#144 = APPROVAL_PERSON_ORGANIZATION ( #26, #32, #113 ) ;
#145 = CC_DESIGN_DATE_AND_TIME_ASSIGNMENT ( #21, #133, ( #63 ) ) ;
#146 = EDGE_LOOP ( 'NONE', ( #148, #123, #137, #56 ) ) ;
#147 = PERSON_AND_ORGANIZATION ( #46, #127 ) ;
#148 = ORIENTED_EDGE ( 'NONE', *, *, #28, .F. ) ;
#149 = APPLICATION_PROTOCOL_DEFINITION ( 'international standard', 'config_control_design', 1994, #6 ) ;
#150 = ADVANCED_FACE ( 'NONE', ( #68 ), #163, .T. ) ;
#151 = LOCAL_TIME ( 9, 52, 4.000000000000000000, #165 ) ;
#152 = FACE_OUTER_BOUND ( 'NONE', #146, .T. ) ;
#153 =( NAMED_UNIT ( * ) SI_UNIT ( $, .STERADIAN. ) SOLID_ANGLE_UNIT ( ) );
#154 = DATE_AND_TIME ( #108, #151 ) ;
#155 = APPROVAL_ROLE ( '' ) ;
#156 = APPROVAL_STATUS ( 'not_yet_approved' ) ;
#157 = ORIENTED_EDGE ( 'NONE', *, *, #67, .T. ) ;
#158 = APPROVAL_DATE_TIME ( #154, #57 ) ;
#159 = LOCAL_TIME ( 9, 52, 4.000000000000000000, #66 ) ;
#160 = COORDINATED_UNIVERSAL_TIME_OFFSET ( 8, 0, .AHEAD. ) ;
#161 = APPROVAL_ROLE ( '' ) ;
#162 = PRODUCT_DEFINITION ( 'UNKNOWN', '', #139, #103 ) ;
#163 = CYLINDRICAL_SURFACE ( 'NONE', #99, 25.39999999999999858 ) ;
#164 = AXIS2_PLACEMENT_3D ( 'NONE', #116, #130, #45 ) ;
#165 = COORDINATED_UNIVERSAL_TIME_OFFSET ( 8, 0, .AHEAD. ) ;
#166 = PERSON_AND_ORGANIZATION_ROLE ( 'creator' ) ;
#167 = VERTEX_POINT ( 'NONE', #143 ) ;
#168 = PERSON_AND_ORGANIZATION ( #46, #127 ) ;
#169 = CC_DESIGN_APPROVAL ( #57, ( #139 ) ) ;
#170 = APPROVAL_STATUS ( 'not_yet_approved' ) ;
#171 = PRODUCT_DEFINITION_SHAPE ( 'NONE', 'NONE',  #162 ) ;
#172 = MECHANICAL_CONTEXT ( 'NONE', #6, 'mechanical' ) ;
#173 = CC_DESIGN_DATE_AND_TIME_ASSIGNMENT ( #3, #52, ( #162 ) ) ;
#174 = CALENDAR_DATE ( 2020, 24, 12 ) ;
#175 = LOCAL_TIME ( 9, 52, 4.000000000000000000, #40 ) ;
ENDSEC;
END-ISO-10303-21;
